0
SECTION
2
HEADER
9
$INSUNITS
70
4
0
ENDSEC
0
SECTION
2
TABLES
0
TABLE
2
LTYPE
0
LTYPE
72
65
70
64
2
CONTINUOUS
3
______
73
0
40
0
0
ENDTAB
0
TABLE
2
LAYER
0
ENDTAB
0
ENDSEC
0
SECTION
2
ENTITIES
0
LINE
8
0
10
-7
20
-7
11
7
21
-7
0
LINE
8
0
10
7
20
-7
11
7
21
7
0
LINE
8
0
10
7
20
7
11
-7
21
7
0
LINE
8
0
10
-7
20
7
11
-7
21
-7
0
LINE
8
0
10
-7
20
12
11
7
21
12
0
LINE
8
0
10
7
20
12
11
7
21
26
0
LINE
8
0
10
7
20
26
11
-7
21
26
0
LINE
8
0
10
-7
20
26
11
-7
21
12
0
LINE
8
0
10
23
20
-7
11
37
21
-7
0
LINE
8
0
10
37
20
-7
11
37
21
7
0
LINE
8
0
10
37
20
7
11
23
21
7
0
LINE
8
0
10
23
20
7
11
23
21
-7
0
LINE
8
0
10
23
20
12
11
37
21
12
0
LINE
8
0
10
37
20
12
11
37
21
26
0
LINE
8
0
10
37
20
26
11
23
21
26
0
LINE
8
0
10
23
20
26
11
23
21
12
0
LINE
8
0
10
31.0980762
20
-4.0980762
11
36.2942286
21
-7.0980762
0
LINE
8
0
10
36.2942286
20
-7.0980762
11
39.2942286
21
-1.9019238
0
LINE
8
0
10
39.2942286
20
-1.9019238
11
34.0980762
21
1.0980762
0
LINE
8
0
10
34.0980762
20
1.0980762
11
31.0980762
21
-4.0980762
0
LINE
8
0
10
31.0980762
20
14.9019238
11
36.2942286
21
11.9019238
0
LINE
8
0
10
36.2942286
20
11.9019238
11
39.2942286
21
17.0980762
0
LINE
8
0
10
39.2942286
20
17.0980762
11
34.0980762
21
20.0980762
0
LINE
8
0
10
34.0980762
20
20.0980762
11
31.0980762
21
14.9019238
0
LINE
8
0
10
-1.0980762
20
-4.0980762
11
4.0980762
21
-1.0980762
0
LINE
8
0
10
4.0980762
20
-1.0980762
11
1.0980762
21
4.0980762
0
LINE
8
0
10
1.0980762
20
4.0980762
11
-4.0980762
21
1.0980762
0
LINE
8
0
10
-4.0980762
20
1.0980762
11
-1.0980762
21
-4.0980762
0
LINE
8
0
10
-1.0980762
20
14.9019238
11
4.0980762
21
17.9019238
0
LINE
8
0
10
4.0980762
20
17.9019238
11
1.0980762
21
23.0980762
0
LINE
8
0
10
1.0980762
20
23.0980762
11
-4.0980762
21
20.0980762
0
LINE
8
0
10
-4.0980762
20
20.0980762
11
-1.0980762
21
14.9019238
0
ENDSEC
0
EOF