0
SECTION
2
HEADER
9
$INSUNITS
70
4
0
ENDSEC
0
SECTION
2
TABLES
0
TABLE
2
LTYPE
0
LTYPE
72
65
70
64
2
CONTINUOUS
3
______
73
0
40
0
0
ENDTAB
0
TABLE
2
LAYER
0
ENDTAB
0
ENDSEC
0
SECTION
2
ENTITIES
0
LINE
8
0
10
4.3
20
-3.3
11
4.3
21
11.8
0
LINE
8
0
10
-3.3
20
-4.3
11
3.3
21
-4.3
0
LINE
8
0
10
-4.3
20
-3.3
11
-4.3
21
11.8
0
LINE
8
0
10
-3.3
20
12.8
11
3.3
21
12.8
0
LINE
8
0
10
13.8
20
-3.3
11
13.8
21
11.8
0
LINE
8
0
10
6.2
20
-4.3
11
12.8
21
-4.3
0
LINE
8
0
10
5.2
20
-3.3
11
5.2
21
11.8
0
LINE
8
0
10
6.2
20
12.8
11
12.8
21
12.8
0
ARC
8
0
10
3.3
20
11.8
40
1
50
0
51
90
0
ARC
8
0
10
-3.3
20
11.8
40
1
50
90
51
180
0
ARC
8
0
10
-3.3
20
-3.3
40
1
50
180
51
270
0
ARC
8
0
10
3.3
20
-3.3
40
1
50
270
51
0
0
ARC
8
0
10
12.8
20
11.8
40
1
50
0
51
90
0
ARC
8
0
10
6.2
20
11.8
40
1
50
90
51
180
0
ARC
8
0
10
6.2
20
-3.3
40
1
50
180
51
270
0
ARC
8
0
10
12.8
20
-3.3
40
1
50
270
51
0
0
ENDSEC
0
EOF